ISO-10303-21;
HEADER;
/* Generated by software containing ST-Developer
 * from STEP Tools, Inc. (www.steptools.com) 
 */

FILE_DESCRIPTION(
/* description */ (''),
/* implementation_level */ '2;1');

FILE_NAME(
/* name */ 
'C:/Users/jebearer/OneDrive/Desktop/Joes Files/Vice Knobs v1.step',
/* time_stamp */ '2022-10-21T08:24:28-04:00',
/* author */ (''),
/* organization */ (''),
/* preprocessor_version */ 'ST-DEVELOPER v19',
/* originating_system */ 'Autodesk Translation Framework v11.7.0.108',
/* authorisation */ '');

FILE_SCHEMA (('AUTOMOTIVE_DESIGN { 1 0 10303 214 3 1 1 }'));
ENDSEC;

DATA;
#10=MECHANICAL_DESIGN_GEOMETRIC_PRESENTATION_REPRESENTATION('',(#13),#265);
#11=SHAPE_REPRESENTATION_RELATIONSHIP('SRR','None',#272,#12);
#12=ADVANCED_BREP_SHAPE_REPRESENTATION('',(#14),#264);
#13=STYLED_ITEM('',(#281),#14);
#14=MANIFOLD_SOLID_BREP('Body1',#143);
#15=CONICAL_SURFACE('',#166,22.9,0.785398163397448);
#16=CONICAL_SURFACE('',#172,22.9,0.785398163397448);
#17=FACE_BOUND('',#37,.T.);
#18=FACE_BOUND('',#40,.T.);
#19=FACE_BOUND('',#44,.T.);
#20=FACE_BOUND('',#47,.T.);
#21=PLANE('',#160);
#22=PLANE('',#164);
#23=PLANE('',#171);
#24=PLANE('',#174);
#25=FACE_OUTER_BOUND('',#35,.T.);
#26=FACE_OUTER_BOUND('',#36,.T.);
#27=FACE_OUTER_BOUND('',#38,.T.);
#28=FACE_OUTER_BOUND('',#39,.T.);
#29=FACE_OUTER_BOUND('',#41,.T.);
#30=FACE_OUTER_BOUND('',#42,.T.);
#31=FACE_OUTER_BOUND('',#43,.T.);
#32=FACE_OUTER_BOUND('',#45,.T.);
#33=FACE_OUTER_BOUND('',#46,.T.);
#34=FACE_OUTER_BOUND('',#48,.T.);
#35=EDGE_LOOP('',(#97,#98,#99,#100));
#36=EDGE_LOOP('',(#101));
#37=EDGE_LOOP('',(#102));
#38=EDGE_LOOP('',(#103,#104,#105,#106));
#39=EDGE_LOOP('',(#107));
#40=EDGE_LOOP('',(#108));
#41=EDGE_LOOP('',(#109,#110,#111,#112));
#42=EDGE_LOOP('',(#113,#114,#115,#116));
#43=EDGE_LOOP('',(#117));
#44=EDGE_LOOP('',(#118));
#45=EDGE_LOOP('',(#119,#120,#121,#122));
#46=EDGE_LOOP('',(#123));
#47=EDGE_LOOP('',(#124));
#48=EDGE_LOOP('',(#125,#126,#127,#128));
#49=LINE('',#230,#55);
#50=LINE('',#237,#56);
#51=LINE('',#246,#57);
#52=LINE('',#250,#58);
#53=LINE('',#255,#59);
#54=LINE('',#261,#60);
#55=VECTOR('',#183,6.);
#56=VECTOR('',#192,2.5);
#57=VECTOR('',#203,22.9);
#58=VECTOR('',#208,25.4);
#59=VECTOR('',#215,22.9);
#60=VECTOR('',#224,14.605);
#61=CIRCLE('',#158,6.);
#62=CIRCLE('',#159,6.);
#63=CIRCLE('',#161,2.5);
#64=CIRCLE('',#163,2.5);
#65=CIRCLE('',#165,14.605);
#66=CIRCLE('',#167,20.4);
#67=CIRCLE('',#168,25.4);
#68=CIRCLE('',#170,25.4);
#69=CIRCLE('',#173,20.4);
#70=CIRCLE('',#175,14.605);
#71=VERTEX_POINT('',#227);
#72=VERTEX_POINT('',#229);
#73=VERTEX_POINT('',#233);
#74=VERTEX_POINT('',#236);
#75=VERTEX_POINT('',#240);
#76=VERTEX_POINT('',#243);
#77=VERTEX_POINT('',#245);
#78=VERTEX_POINT('',#249);
#79=VERTEX_POINT('',#254);
#80=VERTEX_POINT('',#258);
#81=EDGE_CURVE('',#71,#71,#61,.T.);
#82=EDGE_CURVE('',#71,#72,#49,.T.);
#83=EDGE_CURVE('',#72,#72,#62,.T.);
#84=EDGE_CURVE('',#73,#73,#63,.T.);
#85=EDGE_CURVE('',#73,#74,#50,.T.);
#86=EDGE_CURVE('',#74,#74,#64,.T.);
#87=EDGE_CURVE('',#75,#75,#65,.T.);
#88=EDGE_CURVE('',#76,#76,#66,.T.);
#89=EDGE_CURVE('',#76,#77,#51,.T.);
#90=EDGE_CURVE('',#77,#77,#67,.T.);
#91=EDGE_CURVE('',#77,#78,#52,.T.);
#92=EDGE_CURVE('',#78,#78,#68,.T.);
#93=EDGE_CURVE('',#78,#79,#53,.T.);
#94=EDGE_CURVE('',#79,#79,#69,.T.);
#95=EDGE_CURVE('',#80,#80,#70,.T.);
#96=EDGE_CURVE('',#75,#80,#54,.T.);
#97=ORIENTED_EDGE('',*,*,#81,.F.);
#98=ORIENTED_EDGE('',*,*,#82,.T.);
#99=ORIENTED_EDGE('',*,*,#83,.T.);
#100=ORIENTED_EDGE('',*,*,#82,.F.);
#101=ORIENTED_EDGE('',*,*,#83,.F.);
#102=ORIENTED_EDGE('',*,*,#84,.F.);
#103=ORIENTED_EDGE('',*,*,#84,.T.);
#104=ORIENTED_EDGE('',*,*,#85,.T.);
#105=ORIENTED_EDGE('',*,*,#86,.F.);
#106=ORIENTED_EDGE('',*,*,#85,.F.);
#107=ORIENTED_EDGE('',*,*,#87,.F.);
#108=ORIENTED_EDGE('',*,*,#86,.T.);
#109=ORIENTED_EDGE('',*,*,#88,.T.);
#110=ORIENTED_EDGE('',*,*,#89,.T.);
#111=ORIENTED_EDGE('',*,*,#90,.T.);
#112=ORIENTED_EDGE('',*,*,#89,.F.);
#113=ORIENTED_EDGE('',*,*,#90,.F.);
#114=ORIENTED_EDGE('',*,*,#91,.T.);
#115=ORIENTED_EDGE('',*,*,#92,.F.);
#116=ORIENTED_EDGE('',*,*,#91,.F.);
#117=ORIENTED_EDGE('',*,*,#88,.F.);
#118=ORIENTED_EDGE('',*,*,#81,.T.);
#119=ORIENTED_EDGE('',*,*,#92,.T.);
#120=ORIENTED_EDGE('',*,*,#93,.T.);
#121=ORIENTED_EDGE('',*,*,#94,.T.);
#122=ORIENTED_EDGE('',*,*,#93,.F.);
#123=ORIENTED_EDGE('',*,*,#94,.F.);
#124=ORIENTED_EDGE('',*,*,#95,.F.);
#125=ORIENTED_EDGE('',*,*,#87,.T.);
#126=ORIENTED_EDGE('',*,*,#96,.T.);
#127=ORIENTED_EDGE('',*,*,#95,.T.);
#128=ORIENTED_EDGE('',*,*,#96,.F.);
#129=CYLINDRICAL_SURFACE('',#157,6.);
#130=CYLINDRICAL_SURFACE('',#162,2.5);
#131=CYLINDRICAL_SURFACE('',#169,25.4);
#132=CYLINDRICAL_SURFACE('',#176,14.605);
#133=ADVANCED_FACE('',(#25),#129,.F.);
#134=ADVANCED_FACE('',(#26,#17),#21,.T.);
#135=ADVANCED_FACE('',(#27),#130,.F.);
#136=ADVANCED_FACE('',(#28,#18),#22,.F.);
#137=ADVANCED_FACE('',(#29),#15,.T.);
#138=ADVANCED_FACE('',(#30),#131,.T.);
#139=ADVANCED_FACE('',(#31,#19),#23,.T.);
#140=ADVANCED_FACE('',(#32),#16,.T.);
#141=ADVANCED_FACE('',(#33,#20),#24,.F.);
#142=ADVANCED_FACE('',(#34),#132,.F.);
#143=CLOSED_SHELL('',(#133,#134,#135,#136,#137,#138,#139,#140,#141,#142));
#144=DERIVED_UNIT_ELEMENT(#146,1.);
#145=DERIVED_UNIT_ELEMENT(#267,-3.);
#146=(
MASS_UNIT()
NAMED_UNIT(*)
SI_UNIT(.KILO.,.GRAM.)
);
#147=DERIVED_UNIT((#144,#145));
#148=MEASURE_REPRESENTATION_ITEM('density measure',
POSITIVE_RATIO_MEASURE(7850.),#147);
#149=PROPERTY_DEFINITION_REPRESENTATION(#154,#151);
#150=PROPERTY_DEFINITION_REPRESENTATION(#155,#152);
#151=REPRESENTATION('material name',(#153),#264);
#152=REPRESENTATION('density',(#148),#264);
#153=DESCRIPTIVE_REPRESENTATION_ITEM('Steel','Steel');
#154=PROPERTY_DEFINITION('material property','material name',#274);
#155=PROPERTY_DEFINITION('material property','density of part',#274);
#156=AXIS2_PLACEMENT_3D('placement',#225,#177,#178);
#157=AXIS2_PLACEMENT_3D('',#226,#179,#180);
#158=AXIS2_PLACEMENT_3D('',#228,#181,#182);
#159=AXIS2_PLACEMENT_3D('',#231,#184,#185);
#160=AXIS2_PLACEMENT_3D('',#232,#186,#187);
#161=AXIS2_PLACEMENT_3D('',#234,#188,#189);
#162=AXIS2_PLACEMENT_3D('',#235,#190,#191);
#163=AXIS2_PLACEMENT_3D('',#238,#193,#194);
#164=AXIS2_PLACEMENT_3D('',#239,#195,#196);
#165=AXIS2_PLACEMENT_3D('',#241,#197,#198);
#166=AXIS2_PLACEMENT_3D('',#242,#199,#200);
#167=AXIS2_PLACEMENT_3D('',#244,#201,#202);
#168=AXIS2_PLACEMENT_3D('',#247,#204,#205);
#169=AXIS2_PLACEMENT_3D('',#248,#206,#207);
#170=AXIS2_PLACEMENT_3D('',#251,#209,#210);
#171=AXIS2_PLACEMENT_3D('',#252,#211,#212);
#172=AXIS2_PLACEMENT_3D('',#253,#213,#214);
#173=AXIS2_PLACEMENT_3D('',#256,#216,#217);
#174=AXIS2_PLACEMENT_3D('',#257,#218,#219);
#175=AXIS2_PLACEMENT_3D('',#259,#220,#221);
#176=AXIS2_PLACEMENT_3D('',#260,#222,#223);
#177=DIRECTION('axis',(0.,0.,1.));
#178=DIRECTION('refdir',(1.,0.,0.));
#179=DIRECTION('center_axis',(0.,0.,-1.));
#180=DIRECTION('ref_axis',(-1.,0.,0.));
#181=DIRECTION('center_axis',(0.,0.,-1.));
#182=DIRECTION('ref_axis',(-1.,0.,0.));
#183=DIRECTION('',(0.,0.,-1.));
#184=DIRECTION('center_axis',(0.,0.,-1.));
#185=DIRECTION('ref_axis',(-1.,0.,0.));
#186=DIRECTION('center_axis',(0.,0.,1.));
#187=DIRECTION('ref_axis',(-1.,0.,0.));
#188=DIRECTION('center_axis',(0.,0.,1.));
#189=DIRECTION('ref_axis',(-1.,0.,0.));
#190=DIRECTION('center_axis',(0.,0.,-1.));
#191=DIRECTION('ref_axis',(-1.,0.,0.));
#192=DIRECTION('',(0.,0.,-1.));
#193=DIRECTION('center_axis',(0.,0.,1.));
#194=DIRECTION('ref_axis',(-1.,0.,0.));
#195=DIRECTION('center_axis',(0.,0.,1.));
#196=DIRECTION('ref_axis',(-1.,0.,0.));
#197=DIRECTION('center_axis',(0.,0.,1.));
#198=DIRECTION('ref_axis',(1.,0.,0.));
#199=DIRECTION('center_axis',(0.,0.,-1.));
#200=DIRECTION('ref_axis',(1.,0.,0.));
#201=DIRECTION('center_axis',(0.,0.,-1.));
#202=DIRECTION('ref_axis',(1.,0.,0.));
#203=DIRECTION('',(-0.707106781186548,-8.65956056235493E-17,-0.707106781186548));
#204=DIRECTION('center_axis',(0.,0.,1.));
#205=DIRECTION('ref_axis',(1.,0.,0.));
#206=DIRECTION('center_axis',(0.,0.,1.));
#207=DIRECTION('ref_axis',(1.,0.,0.));
#208=DIRECTION('',(0.,0.,-1.));
#209=DIRECTION('center_axis',(0.,0.,-1.));
#210=DIRECTION('ref_axis',(1.,0.,0.));
#211=DIRECTION('center_axis',(0.,0.,1.));
#212=DIRECTION('ref_axis',(1.,0.,0.));
#213=DIRECTION('center_axis',(0.,0.,1.));
#214=DIRECTION('ref_axis',(1.,0.,0.));
#215=DIRECTION('',(0.707106781186548,8.65956056235493E-17,-0.707106781186548));
#216=DIRECTION('center_axis',(0.,0.,1.));
#217=DIRECTION('ref_axis',(1.,0.,0.));
#218=DIRECTION('center_axis',(0.,0.,1.));
#219=DIRECTION('ref_axis',(1.,0.,0.));
#220=DIRECTION('center_axis',(0.,0.,-1.));
#221=DIRECTION('ref_axis',(1.,0.,0.));
#222=DIRECTION('center_axis',(0.,0.,1.));
#223=DIRECTION('ref_axis',(1.,0.,0.));
#224=DIRECTION('',(0.,0.,-1.));
#225=CARTESIAN_POINT('',(0.,0.,0.));
#226=CARTESIAN_POINT('Origin',(0.,0.,38.1));
#227=CARTESIAN_POINT('',(6.,7.34788079488412E-16,38.1));
#228=CARTESIAN_POINT('Origin',(0.,0.,38.1));
#229=CARTESIAN_POINT('',(6.,7.34788079488412E-16,33.1));
#230=CARTESIAN_POINT('',(6.,-7.34788079488412E-16,38.1));
#231=CARTESIAN_POINT('Origin',(0.,0.,33.1));
#232=CARTESIAN_POINT('Origin',(0.,0.,33.1));
#233=CARTESIAN_POINT('',(2.5,3.06161699786838E-16,33.1));
#234=CARTESIAN_POINT('Origin',(0.,0.,33.1));
#235=CARTESIAN_POINT('Origin',(0.,0.,38.1));
#236=CARTESIAN_POINT('',(2.5,3.06161699786838E-16,19.05));
#237=CARTESIAN_POINT('',(2.5,-3.06161699786838E-16,38.1));
#238=CARTESIAN_POINT('Origin',(0.,0.,19.05));
#239=CARTESIAN_POINT('Origin',(0.,0.,19.05));
#240=CARTESIAN_POINT('',(-14.605,-1.78859665015471E-15,19.05));
#241=CARTESIAN_POINT('Origin',(0.,0.,19.05));
#242=CARTESIAN_POINT('Origin',(0.,0.,35.6));
#243=CARTESIAN_POINT('',(-20.4,2.4982794702606E-15,38.1));
#244=CARTESIAN_POINT('Origin',(0.,0.,38.1));
#245=CARTESIAN_POINT('',(-25.4,-3.11060286983428E-15,33.1));
#246=CARTESIAN_POINT('',(-22.9,-2.80444117004744E-15,35.6));
#247=CARTESIAN_POINT('Origin',(0.,0.,33.1));
#248=CARTESIAN_POINT('Origin',(0.,0.,0.));
#249=CARTESIAN_POINT('',(-25.4,3.11060286983428E-15,5.));
#250=CARTESIAN_POINT('',(-25.4,-3.11060286983428E-15,0.));
#251=CARTESIAN_POINT('Origin',(0.,0.,5.));
#252=CARTESIAN_POINT('Origin',(0.,0.,38.1));
#253=CARTESIAN_POINT('Origin',(0.,0.,2.5));
#254=CARTESIAN_POINT('',(-20.4,-2.4982794702606E-15,0.));
#255=CARTESIAN_POINT('',(-22.9,-2.80444117004744E-15,2.5));
#256=CARTESIAN_POINT('Origin',(0.,0.,0.));
#257=CARTESIAN_POINT('Origin',(0.,0.,0.));
#258=CARTESIAN_POINT('',(-14.605,-1.78859665015471E-15,0.));
#259=CARTESIAN_POINT('Origin',(0.,0.,0.));
#260=CARTESIAN_POINT('Origin',(0.,0.,0.));
#261=CARTESIAN_POINT('',(-14.605,-1.78859665015471E-15,0.));
#262=UNCERTAINTY_MEASURE_WITH_UNIT(LENGTH_MEASURE(0.01),#266,
'DISTANCE_ACCURACY_VALUE',
'Maximum model space distance between geometric entities at asserted c
onnectivities');
#263=UNCERTAINTY_MEASURE_WITH_UNIT(LENGTH_MEASURE(0.01),#266,
'DISTANCE_ACCURACY_VALUE',
'Maximum model space distance between geometric entities at asserted c
onnectivities');
#264=(
GEOMETRIC_REPRESENTATION_CONTEXT(3)
GLOBAL_UNCERTAINTY_ASSIGNED_CONTEXT((#262))
GLOBAL_UNIT_ASSIGNED_CONTEXT((#266,#268,#269))
REPRESENTATION_CONTEXT('','3D')
);
#265=(
GEOMETRIC_REPRESENTATION_CONTEXT(3)
GLOBAL_UNCERTAINTY_ASSIGNED_CONTEXT((#263))
GLOBAL_UNIT_ASSIGNED_CONTEXT((#266,#268,#269))
REPRESENTATION_CONTEXT('','3D')
);
#266=(
LENGTH_UNIT()
NAMED_UNIT(*)
SI_UNIT(.MILLI.,.METRE.)
);
#267=(
LENGTH_UNIT()
NAMED_UNIT(*)
SI_UNIT($,.METRE.)
);
#268=(
NAMED_UNIT(*)
PLANE_ANGLE_UNIT()
SI_UNIT($,.RADIAN.)
);
#269=(
NAMED_UNIT(*)
SI_UNIT($,.STERADIAN.)
SOLID_ANGLE_UNIT()
);
#270=SHAPE_DEFINITION_REPRESENTATION(#271,#272);
#271=PRODUCT_DEFINITION_SHAPE('',$,#274);
#272=SHAPE_REPRESENTATION('',(#156),#264);
#273=PRODUCT_DEFINITION_CONTEXT('part definition',#278,'design');
#274=PRODUCT_DEFINITION('Vice Knobs','Vice Knobs v1',#275,#273);
#275=PRODUCT_DEFINITION_FORMATION('',$,#280);
#276=PRODUCT_RELATED_PRODUCT_CATEGORY('Vice Knobs v1','Vice Knobs v1',(#280));
#277=APPLICATION_PROTOCOL_DEFINITION('international standard',
'automotive_design',2009,#278);
#278=APPLICATION_CONTEXT(
'Core Data for Automotive Mechanical Design Process');
#279=PRODUCT_CONTEXT('part definition',#278,'mechanical');
#280=PRODUCT('Vice Knobs','Vice Knobs v1',$,(#279));
#281=PRESENTATION_STYLE_ASSIGNMENT((#282));
#282=SURFACE_STYLE_USAGE(.BOTH.,#283);
#283=SURFACE_SIDE_STYLE('',(#284));
#284=SURFACE_STYLE_FILL_AREA(#285);
#285=FILL_AREA_STYLE('Steel - Satin',(#286));
#286=FILL_AREA_STYLE_COLOUR('Steel - Satin',#287);
#287=COLOUR_RGB('Steel - Satin',0.627450980392157,0.627450980392157,0.627450980392157);
ENDSEC;
END-ISO-10303-21;
